ISO-10303-21;
HEADER;
FILE_DESCRIPTION (( 'STEP AP214' ),
    '1' );
FILE_NAME ('FULLVAC RC1KF5016.STEP',
    '2019-04-24T08:37:02',
    ( '' ),
    ( '' ),
    'SwSTEP 2.0',
    'SolidWorks 2017',
    '' );
FILE_SCHEMA (( 'AUTOMOTIVE_DESIGN' ));
ENDSEC;

DATA;
#1 = CONICAL_SURFACE ( 'NONE', #290, 15.00000000000310300, 1.308996938999999400 ) ;
#2 = CONICAL_SURFACE ( 'NONE', #307, 25.40000000002323000, 0.5357246990848287800 ) ;
#3 = FACE_OUTER_BOUND ( 'NONE', #24, .T. ) ;
#4 = PLANE ( 'NONE',  #36 ) ;
#5 = DIRECTION ( 'NONE',  ( -1.000000000000000000, -0.0000000000000000000, -0.0000000000000000000 ) ) ;
#6 = AXIS2_PLACEMENT_3D ( 'NONE', #170, #220, #60 ) ;
#7 = DIRECTION ( 'NONE',  ( 1.000000000000000000, 0.0000000000000000000, 0.0000000000000000000 ) ) ;
#8 = AXIS2_PLACEMENT_3D ( 'NONE', #215, #293, #57 ) ;
#9 = DIRECTION ( 'NONE',  ( 0.0000000000000000000, 0.0000000000000000000, 1.000000000000000000 ) ) ;
#10 = VERTEX_POINT ( 'NONE', #46 ) ;
#11 = FACE_BOUND ( 'NONE', #298, .T. ) ;
#12 =( GEOMETRIC_REPRESENTATION_CONTEXT ( 3 ) GLOBAL_UNCERTAINTY_ASSIGNED_CONTEXT ( ( #339 ) ) GLOBAL_UNIT_ASSIGNED_CONTEXT ( ( #148, #178, #41 ) ) REPRESENTATION_CONTEXT ( 'NONE', 'WORKASPACE' ) );
#13 = DIRECTION ( 'NONE',  ( 1.000000000000000000, -0.0000000000000000000, 0.0000000000000000000 ) ) ;
#14 = ORIENTED_EDGE ( 'NONE', *, *, #217, .F. ) ;
#15 = DIRECTION ( 'NONE',  ( 0.0000000000000000000, 0.0000000000000000000, 1.000000000000000000 ) ) ;
#16 = CARTESIAN_POINT ( 'NONE',  ( 5.099999999984913000, 0.0000000000000000000, 30.35910346561516300 ) ) ;
#17 =( NAMED_UNIT ( * ) SI_UNIT ( $, .STERADIAN. ) SOLID_ANGLE_UNIT ( ) );
#18 = STYLED_ITEM ( 'NONE', ( #244 ), #241 ) ;
#19 = ORIENTED_EDGE ( 'NONE', *, *, #130, .T. ) ;
#20 = CARTESIAN_POINT ( 'NONE',  ( 2.540000000012849800, 0.0000000000000000000, 23.75000000002364700 ) ) ;
#21 = FACE_BOUND ( 'NONE', #49, .T. ) ;
#22 = ORIENTED_EDGE ( 'NONE', *, *, #124, .F. ) ;
#23 = ADVANCED_FACE ( 'NONE', ( #263, #324 ), #1, .T. ) ;
#24 = EDGE_LOOP ( 'NONE', ( #315 ) ) ;
#25 = FACE_OUTER_BOUND ( 'NONE', #288, .T. ) ;
#26 = DIRECTION ( 'NONE',  ( 0.0000000000000000000, 0.0000000000000000000, 1.000000000000000000 ) ) ;
#27 = DIRECTION ( 'NONE',  ( 0.0000000000000000000, 0.0000000000000000000, -1.000000000000000000 ) ) ;
#28 = CARTESIAN_POINT ( 'NONE',  ( 0.0000000000000000000, 0.0000000000000000000, 0.0000000000000000000 ) ) ;
#29 = EDGE_LOOP ( 'NONE', ( #154 ) ) ;
#30 = DIRECTION ( 'NONE',  ( -1.000000000000000000, 0.0000000000000000000, 0.0000000000000000000 ) ) ;
#31 = DIRECTION ( 'NONE',  ( 0.0000000000000000000, 0.0000000000000000000, -1.000000000000000000 ) ) ;
#32 = EDGE_CURVE ( 'NONE', #10, #10, #94, .T. ) ;
#33 = PLANE ( 'NONE',  #103 ) ;
#34 = FACE_BOUND ( 'NONE', #216, .T. ) ;
#35 = ORIENTED_EDGE ( 'NONE', *, *, #271, .F. ) ;
#36 = AXIS2_PLACEMENT_3D ( 'NONE', #55, #240, #239 ) ;
#37 = VERTEX_POINT ( 'NONE', #174 ) ;
#38 = AXIS2_PLACEMENT_3D ( 'NONE', #179, #351, #106 ) ;
#39 = PRESENTATION_STYLE_ASSIGNMENT (( #78 ) ) ;
#40 = AXIS2_PLACEMENT_3D ( 'NONE', #141, #89, #142 ) ;
#41 =( NAMED_UNIT ( * ) SI_UNIT ( $, .STERADIAN. ) SOLID_ANGLE_UNIT ( ) );
#42 = APPLICATION_CONTEXT ( 'automotive_design' ) ;
#43 = ORIENTED_EDGE ( 'NONE', *, *, #255, .T. ) ;
#44 = CARTESIAN_POINT ( 'NONE',  ( 0.0000000000000000000, 0.0000000000000000000, -26.16000000000000000 ) ) ;
#45 = CARTESIAN_POINT ( 'NONE',  ( 5.100000000013791300, 0.0000000000000000000, 25.40000000002322600 ) ) ;
#46 = CARTESIAN_POINT ( 'NONE',  ( 36.69999999998842100, 0.0000000000000000000, -15.00000000000310300 ) ) ;
#47 = ORIENTED_EDGE ( 'NONE', *, *, #340, .T. ) ;
#48 = COLOUR_RGB ( '',0.7450980392156862900, 0.7450980392156862900, 0.7450980392156862900 ) ;
#49 = EDGE_LOOP ( 'NONE', ( #61 ) ) ;
#50 = MANIFOLD_SOLID_BREP ( '\X2\5BE69AD4\X0\2', #225 ) ;
#51 = FACE_BOUND ( 'NONE', #29, .T. ) ;
#52 = EDGE_LOOP ( 'NONE', ( #166 ) ) ;
#53 = VERTEX_POINT ( 'NONE', #70 ) ;
#54 = FACE_BOUND ( 'NONE', #233, .T. ) ;
#55 = CARTESIAN_POINT ( 'NONE',  ( 39.89999999999999900, 1.937561997600620000E-016, -4.849738739522680400E-016 ) ) ;
#56 = ORIENTED_EDGE ( 'NONE', *, *, #75, .T. ) ;
#57 = DIRECTION ( 'NONE',  ( 0.0000000000000000000, 0.0000000000000000000, -1.000000000000000000 ) ) ;
#58 = FACE_OUTER_BOUND ( 'NONE', #302, .T. ) ;
#59 = DIRECTION ( 'NONE',  ( 0.0000000000000000000, 0.0000000000000000000, 1.000000000000000000 ) ) ;
#60 = DIRECTION ( 'NONE',  ( 0.0000000000000000000, 0.0000000000000000000, 1.000000000000000000 ) ) ;
#61 = ORIENTED_EDGE ( 'NONE', *, *, #97, .F. ) ;
#62 = CARTESIAN_POINT ( 'NONE',  ( 0.0000000000000000000, -1.963283835118420200E-015, 7.905459899422560000E-016 ) ) ;
#63 = DIRECTION ( 'NONE',  ( 0.0000000000000000000, 0.0000000000000000000, -1.000000000000000000 ) ) ;
#64 = CARTESIAN_POINT ( 'NONE',  ( 5.099999999999999600, 0.0000000000000000000, -9.550000000000000700 ) ) ;
#65 = CIRCLE ( 'NONE', #131, 25.40000000002322600 ) ;
#66 = CYLINDRICAL_SURFACE ( 'NONE', #274, 26.16000000000000000 ) ;
#67 = VERTEX_POINT ( 'NONE', #99 ) ;
#68 = ADVANCED_FACE ( 'NONE', ( #173, #337 ), #188, .T. ) ;
#69 = CARTESIAN_POINT ( 'NONE',  ( 39.89999999999999900, 0.0000000000000000000, 15.00000000000000000 ) ) ;
#70 = CARTESIAN_POINT ( 'NONE',  ( 31.79999999998621300, 0.0000000000000000000, -9.549999999976773100 ) ) ;
#71 = FACE_OUTER_BOUND ( 'NONE', #88, .T. ) ;
#72 = DIRECTION ( 'NONE',  ( 1.000000000000000000, 0.0000000000000000000, 0.0000000000000000000 ) ) ;
#73 = PRODUCT_CONTEXT ( 'NONE', #42, 'mechanical' ) ;
#74 = ORIENTED_EDGE ( 'NONE', *, *, #79, .F. ) ;
#75 = EDGE_CURVE ( 'NONE', #53, #53, #238, .T. ) ;
#76 = VERTEX_POINT ( 'NONE', #341 ) ;
#77 = MECHANICAL_DESIGN_GEOMETRIC_PRESENTATION_REPRESENTATION (  '', ( #18 ), #12 ) ;
#78 = SURFACE_STYLE_USAGE ( .BOTH. , #232 ) ;
#79 = EDGE_CURVE ( 'NONE', #37, #37, #104, .T. ) ;
#80 = EDGE_LOOP ( 'NONE', ( #22 ) ) ;
#81 = FACE_OUTER_BOUND ( 'NONE', #105, .T. ) ;
#82 = DIRECTION ( 'NONE',  ( 0.0000000000000000000, 0.0000000000000000000, 1.000000000000000000 ) ) ;
#83 = EDGE_LOOP ( 'NONE', ( #91 ) ) ;
#84 = AXIS2_PLACEMENT_3D ( 'NONE', #209, #268, #113 ) ;
#85 = DIRECTION ( 'NONE',  ( 0.0000000000000000000, 0.0000000000000000000, -1.000000000000000000 ) ) ;
#86 = CARTESIAN_POINT ( 'NONE',  ( 37.35999999999999900, 0.0000000000000000000, 0.0000000000000000000 ) ) ;
#87 = PRODUCT_DEFINITION_SHAPE ( 'NONE', 'NONE',  #320 ) ;
#88 = EDGE_LOOP ( 'NONE', ( #149 ) ) ;
#89 = DIRECTION ( 'NONE',  ( -1.000000000000000000, 0.0000000000000000000, 0.0000000000000000000 ) ) ;
#90 = DIRECTION ( 'NONE',  ( -1.000000000000000000, 0.0000000000000000000, 0.0000000000000000000 ) ) ;
#91 = ORIENTED_EDGE ( 'NONE', *, *, #112, .T. ) ;
#92 = DIRECTION ( 'NONE',  ( 0.0000000000000000000, 0.0000000000000000000, 1.000000000000000000 ) ) ;
#93 = PRODUCT_DEFINITION_FORMATION_WITH_SPECIFIED_SOURCE ( 'ANY', '', #210, .NOT_KNOWN. ) ;
#94 = CIRCLE ( 'NONE', #145, 15.00000000000310300 ) ;
#95 = SURFACE_SIDE_STYLE ('',( #323 ) ) ;
#96 = EDGE_LOOP ( 'NONE', ( #156 ) ) ;
#97 = EDGE_CURVE ( 'NONE', #281, #281, #303, .T. ) ;
#98 = SHAPE_DEFINITION_REPRESENTATION ( #87, #241 ) ;
#99 = CARTESIAN_POINT ( 'NONE',  ( 39.89999999999999900, 0.0000000000000000000, 8.634999999999999800 ) ) ;
#100 = CARTESIAN_POINT ( 'NONE',  ( 36.69999999998842100, 0.0000000000000000000, 0.0000000000000000000 ) ) ;
#101 = FACE_OUTER_BOUND ( 'NONE', #354, .T. ) ;
#102 = ORIENTED_EDGE ( 'NONE', *, *, #292, .F. ) ;
#103 = AXIS2_PLACEMENT_3D ( 'NONE', #64, #248, #31 ) ;
#104 = CIRCLE ( 'NONE', #159, 7.849999999999999600 ) ;
#105 = EDGE_LOOP ( 'NONE', ( #236 ) ) ;
#106 = DIRECTION ( 'NONE',  ( 0.0000000000000000000, 0.0000000000000000000, -1.000000000000000000 ) ) ;
#107 = DIRECTION ( 'NONE',  ( 0.0000000000000000000, 0.0000000000000000000, -1.000000000000000000 ) ) ;
#108 = CARTESIAN_POINT ( 'NONE',  ( 31.79999999998621300, 0.0000000000000000000, 0.0000000000000000000 ) ) ;
#109 = CARTESIAN_POINT ( 'NONE',  ( 31.80000000000000100, 0.0000000000000000000, 0.0000000000000000000 ) ) ;
#110 = EDGE_LOOP ( 'NONE', ( #74 ) ) ;
#111 = DIRECTION ( 'NONE',  ( -1.000000000000000000, 0.0000000000000000000, 0.0000000000000000000 ) ) ;
#112 = EDGE_CURVE ( 'NONE', #204, #204, #231, .T. ) ;
#113 = DIRECTION ( 'NONE',  ( 0.0000000000000000000, 0.0000000000000000000, 1.000000000000000000 ) ) ;
#114 = PLANE ( 'NONE',  #253 ) ;
#115 = DIRECTION ( 'NONE',  ( -1.000000000000000000, 0.0000000000000000000, 0.0000000000000000000 ) ) ;
#116 = ORIENTED_EDGE ( 'NONE', *, *, #124, .T. ) ;
#117 = DIRECTION ( 'NONE',  ( 1.000000000000000000, -0.0000000000000000000, -0.0000000000000000000 ) ) ;
#118 = ADVANCED_FACE ( 'NONE', ( #227, #58 ), #343, .T. ) ;
#119 = FACE_OUTER_BOUND ( 'NONE', #317, .T. ) ;
#120 = CARTESIAN_POINT ( 'NONE',  ( 39.89999999999999900, 0.0000000000000000000, 0.0000000000000000000 ) ) ;
#121 = DIRECTION ( 'NONE',  ( 0.0000000000000000000, 0.0000000000000000000, -1.000000000000000000 ) ) ;
#122 = DIRECTION ( 'NONE',  ( 1.000000000000000000, 0.0000000000000000000, 0.0000000000000000000 ) ) ;
#123 = EDGE_LOOP ( 'NONE', ( #128 ) ) ;
#124 = EDGE_CURVE ( 'NONE', #133, #133, #243, .T. ) ;
#125 = CARTESIAN_POINT ( 'NONE',  ( 0.0000000000000000000, 0.0000000000000000000, -37.45000000000000300 ) ) ;
#126 = CIRCLE ( 'NONE', #132, 26.16000000000000000 ) ;
#127 = ADVANCED_FACE ( 'NONE', ( #254, #71 ), #330, .T. ) ;
#128 = ORIENTED_EDGE ( 'NONE', *, *, #271, .T. ) ;
#129 = CARTESIAN_POINT ( 'NONE',  ( 36.69999999998842100, 0.0000000000000000000, 0.0000000000000000000 ) ) ;
#130 = EDGE_CURVE ( 'NONE', #289, #289, #269, .T. ) ;
#131 = AXIS2_PLACEMENT_3D ( 'NONE', #194, #117, #92 ) ;
#132 = AXIS2_PLACEMENT_3D ( 'NONE', #138, #221, #247 ) ;
#133 = VERTEX_POINT ( 'NONE', #198 ) ;
#134 = DIRECTION ( 'NONE',  ( -1.000000000000000000, 0.0000000000000000000, 0.0000000000000000000 ) ) ;
#135 = DIRECTION ( 'NONE',  ( -1.000000000000000000, 0.0000000000000000000, 0.0000000000000000000 ) ) ;
#136 = DIRECTION ( 'NONE',  ( -1.000000000000000000, 0.0000000000000000000, 0.0000000000000000000 ) ) ;
#137 = ORIENTED_EDGE ( 'NONE', *, *, #147, .F. ) ;
#138 = CARTESIAN_POINT ( 'NONE',  ( 0.0000000000000000000, 0.0000000000000000000, 0.0000000000000000000 ) ) ;
#139 = PRODUCT_DEFINITION_CONTEXT ( 'detailed design', #152, 'design' ) ;
#140 = DIRECTION ( 'NONE',  ( 1.000000000000000000, 0.0000000000000000000, 0.0000000000000000000 ) ) ;
#141 = CARTESIAN_POINT ( 'NONE',  ( 39.89999999999999900, 0.0000000000000000000, 0.0000000000000000000 ) ) ;
#142 = DIRECTION ( 'NONE',  ( 0.0000000000000000000, 0.0000000000000000000, 1.000000000000000000 ) ) ;
#143 = ADVANCED_FACE ( 'NONE', ( #310, #162 ), #200, .F. ) ;
#144 = VERTEX_POINT ( 'NONE', #16 ) ;
#145 = AXIS2_PLACEMENT_3D ( 'NONE', #129, #183, #205 ) ;
#146 = ADVANCED_FACE ( 'NONE', ( #262, #191 ), #4, .T. ) ;
#147 = EDGE_CURVE ( 'NONE', #212, #212, #234, .T. ) ;
#148 =( LENGTH_UNIT ( ) NAMED_UNIT ( * ) SI_UNIT ( .MILLI., .METRE. ) );
#149 = ORIENTED_EDGE ( 'NONE', *, *, #331, .F. ) ;
#150 = ADVANCED_FACE ( 'NONE', ( #21, #119 ), #265, .F. ) ;
#151 = DIRECTION ( 'NONE',  ( 0.0000000000000000000, 0.0000000000000000000, 1.000000000000000000 ) ) ;
#152 = APPLICATION_CONTEXT ( 'automotive_design' ) ;
#153 = CONICAL_SURFACE ( 'NONE', #345, 23.75000000002364700, 0.4977649754094528000 ) ;
#154 = ORIENTED_EDGE ( 'NONE', *, *, #147, .T. ) ;
#155 = SURFACE_STYLE_FILL_AREA ( #181 ) ;
#156 = ORIENTED_EDGE ( 'NONE', *, *, #309, .F. ) ;
#157 = UNCERTAINTY_MEASURE_WITH_UNIT (LENGTH_MEASURE( 1.000000000000000100E-005 ), #261, 'distance_accuracy_value', 'NONE');
#158 = EDGE_LOOP ( 'NONE', ( #175 ) ) ;
#159 = AXIS2_PLACEMENT_3D ( 'NONE', #86, #111, #329 ) ;
#160 = DIRECTION ( 'NONE',  ( 1.000000000000000000, 0.0000000000000000000, 0.0000000000000000000 ) ) ;
#161 = EDGE_LOOP ( 'NONE', ( #116 ) ) ;
#162 = FACE_OUTER_BOUND ( 'NONE', #283, .T. ) ;
#163 = DIRECTION ( 'NONE',  ( -1.000000000000000000, 0.0000000000000000000, 0.0000000000000000000 ) ) ;
#164 = CIRCLE ( 'NONE', #199, 30.35910346561516300 ) ;
#165 = CARTESIAN_POINT ( 'NONE',  ( 2.540000000012849800, 0.0000000000000000000, 0.0000000000000000000 ) ) ;
#166 = ORIENTED_EDGE ( 'NONE', *, *, #309, .T. ) ;
#167 = DIRECTION ( 'NONE',  ( 0.0000000000000000000, 0.0000000000000000000, -1.000000000000000000 ) ) ;
#168 = PRESENTATION_LAYER_ASSIGNMENT (  '', '', ( #295 ) ) ;
#169 =( GEOMETRIC_REPRESENTATION_CONTEXT ( 3 ) GLOBAL_UNCERTAINTY_ASSIGNED_CONTEXT ( ( #353 ) ) GLOBAL_UNIT_ASSIGNED_CONTEXT ( ( #228, #251, #17 ) ) REPRESENTATION_CONTEXT ( 'NONE', 'WORKASPACE' ) );
#170 = CARTESIAN_POINT ( 'NONE',  ( 39.89999999999999900, 0.0000000000000000000, 0.0000000000000000000 ) ) ;
#171 = ADVANCED_FACE ( 'NONE', ( #51, #185 ), #153, .F. ) ;
#172 = PLANE ( 'NONE',  #213 ) ;
#173 = FACE_OUTER_BOUND ( 'NONE', #334, .T. ) ;
#174 = CARTESIAN_POINT ( 'NONE',  ( 37.35999999999999900, 0.0000000000000000000, 7.849999999999999600 ) ) ;
#175 = ORIENTED_EDGE ( 'NONE', *, *, #292, .T. ) ;
#176 = CARTESIAN_POINT ( 'NONE',  ( 3.200000000015086800, 0.0000000000000000000, -37.45000000000405300 ) ) ;
#177 = APPLICATION_PROTOCOL_DEFINITION ( 'draft international standard', 'automotive_design', 1998, #42 ) ;
#178 =( NAMED_UNIT ( * ) PLANE_ANGLE_UNIT ( ) SI_UNIT ( $, .RADIAN. ) );
#179 = CARTESIAN_POINT ( 'NONE',  ( 0.0000000000000000000, 0.0000000000000000000, 0.0000000000000000000 ) ) ;
#180 = ORIENTED_EDGE ( 'NONE', *, *, #112, .F. ) ;
#181 = FILL_AREA_STYLE ('',( #316 ) ) ;
#182 = ADVANCED_FACE ( 'NONE', ( #11, #186 ), #114, .F. ) ;
#183 = DIRECTION ( 'NONE',  ( -1.000000000000000000, -0.0000000000000000000, -0.0000000000000000000 ) ) ;
#184 =( NAMED_UNIT ( * ) PLANE_ANGLE_UNIT ( ) SI_UNIT ( $, .RADIAN. ) );
#185 = FACE_OUTER_BOUND ( 'NONE', #294, .T. ) ;
#186 = FACE_OUTER_BOUND ( 'NONE', #258, .T. ) ;
#187 = EDGE_LOOP ( 'NONE', ( #291 ) ) ;
#188 = CYLINDRICAL_SURFACE ( 'NONE', #38, 9.550000000000000700 ) ;
#189 = FACE_OUTER_BOUND ( 'NONE', #328, .T. ) ;
#190 = AXIS2_PLACEMENT_3D ( 'NONE', #28, #7, #85 ) ;
#191 = FACE_OUTER_BOUND ( 'NONE', #96, .T. ) ;
#192 = CARTESIAN_POINT ( 'NONE',  ( 3.200000000015086800, 0.0000000000000000000, 0.0000000000000000000 ) ) ;
#193 = ORIENTED_EDGE ( 'NONE', *, *, #75, .F. ) ;
#194 = CARTESIAN_POINT ( 'NONE',  ( 5.100000000013791300, 0.0000000000000000000, 0.0000000000000000000 ) ) ;
#195 = DIRECTION ( 'NONE',  ( 0.0000000000000000000, 0.0000000000000000000, -1.000000000000000000 ) ) ;
#196 = DIRECTION ( 'NONE',  ( 0.0000000000000000000, 0.0000000000000000000, 1.000000000000000000 ) ) ;
#197 = VERTEX_POINT ( 'NONE', #176 ) ;
#198 = CARTESIAN_POINT ( 'NONE',  ( 35.23967690125039800, 0.0000000000000000000, -9.550000000000000700 ) ) ;
#199 = AXIS2_PLACEMENT_3D ( 'NONE', #218, #279, #196 ) ;
#200 = CYLINDRICAL_SURFACE ( 'NONE', #235, 7.849999999999999600 ) ;
#201 = FILL_AREA_STYLE ('',( #224 ) ) ;
#202 = ORIENTED_EDGE ( 'NONE', *, *, #79, .T. ) ;
#203 = FACE_BOUND ( 'NONE', #222, .T. ) ;
#204 = VERTEX_POINT ( 'NONE', #125 ) ;
#205 = DIRECTION ( 'NONE',  ( 0.0000000000000000000, 0.0000000000000000000, -1.000000000000000000 ) ) ;
#206 =( NAMED_UNIT ( * ) SI_UNIT ( $, .STERADIAN. ) SOLID_ANGLE_UNIT ( ) );
#207 = CONICAL_SURFACE ( 'NONE', #352, 37.45000000000405300, 1.308996939000000000 ) ;
#208 = CYLINDRICAL_SURFACE ( 'NONE', #6, 8.634999999999999800 ) ;
#209 = CARTESIAN_POINT ( 'NONE',  ( 37.35999999999999900, 0.0000000000000000000, 0.0000000000000000000 ) ) ;
#210 = PRODUCT ( 'FULLVAC RC1KF5016', 'FULLVAC RC1KF5016', '', ( #73 ) ) ;
#211 = DIRECTION ( 'NONE',  ( 0.0000000000000000000, 0.0000000000000000000, 1.000000000000000000 ) ) ;
#212 = VERTEX_POINT ( 'NONE', #282 ) ;
#213 = AXIS2_PLACEMENT_3D ( 'NONE', #335, #301, #299 ) ;
#214 =( GEOMETRIC_REPRESENTATION_CONTEXT ( 3 ) GLOBAL_UNCERTAINTY_ASSIGNED_CONTEXT ( ( #157 ) ) GLOBAL_UNIT_ASSIGNED_CONTEXT ( ( #261, #184, #206 ) ) REPRESENTATION_CONTEXT ( 'NONE', 'WORKASPACE' ) );
#215 = CARTESIAN_POINT ( 'NONE',  ( 2.540000000000000000, 5.658629075561449600E-016, -1.398698817326410200E-015 ) ) ;
#216 = EDGE_LOOP ( 'NONE', ( #56 ) ) ;
#217 = EDGE_CURVE ( 'NONE', #144, #144, #164, .T. ) ;
#218 = CARTESIAN_POINT ( 'NONE',  ( 5.099999999984913000, 0.0000000000000000000, 0.0000000000000000000 ) ) ;
#219 = DIRECTION ( 'NONE',  ( 1.000000000000000000, -0.0000000000000000000, -0.0000000000000000000 ) ) ;
#220 = DIRECTION ( 'NONE',  ( -1.000000000000000000, 0.0000000000000000000, 0.0000000000000000000 ) ) ;
#221 = DIRECTION ( 'NONE',  ( -1.000000000000000000, -0.0000000000000000000, -0.0000000000000000000 ) ) ;
#222 = EDGE_LOOP ( 'NONE', ( #14 ) ) ;
#223 = PRODUCT_RELATED_PRODUCT_CATEGORY ( 'part', '', ( #210 ) ) ;
#224 = FILL_AREA_STYLE_COLOUR ( '', #48 ) ;
#225 = CLOSED_SHELL ( 'NONE', ( #230, #68, #304, #23, #347, #118, #127, #146, #182, #252, #286, #280, #150, #143, #171 ) ) ;
#226 = AXIS2_PLACEMENT_3D ( 'NONE', #109, #270, #26 ) ;
#227 = FACE_OUTER_BOUND ( 'NONE', #52, .T. ) ;
#228 =( LENGTH_UNIT ( ) NAMED_UNIT ( * ) SI_UNIT ( .MILLI., .METRE. ) );
#229 = ORIENTED_EDGE ( 'NONE', *, *, #255, .F. ) ;
#230 = ADVANCED_FACE ( 'NONE', ( #34, #312 ), #2, .T. ) ;
#231 = CIRCLE ( 'NONE', #190, 37.45000000000000300 ) ;
#232 = SURFACE_SIDE_STYLE ('',( #155 ) ) ;
#233 = EDGE_LOOP ( 'NONE', ( #35 ) ) ;
#234 = CIRCLE ( 'NONE', #226, 7.849999999999999600 ) ;
#235 = AXIS2_PLACEMENT_3D ( 'NONE', #327, #134, #59 ) ;
#236 = ORIENTED_EDGE ( 'NONE', *, *, #130, .F. ) ;
#237 = CARTESIAN_POINT ( 'NONE',  ( 35.23967690125039800, 0.0000000000000000000, 0.0000000000000000000 ) ) ;
#238 = CIRCLE ( 'NONE', #259, 9.549999999976773100 ) ;
#239 = DIRECTION ( 'NONE',  ( 0.0000000000000000000, 0.0000000000000000000, -1.000000000000000000 ) ) ;
#240 = DIRECTION ( 'NONE',  ( 1.000000000000000000, -0.0000000000000000000, 0.0000000000000000000 ) ) ;
#241 = ADVANCED_BREP_SHAPE_REPRESENTATION ( 'FULLVAC RC1KF5016', ( #50, #300 ), #169 ) ;
#242 = AXIS2_PLACEMENT_3D ( 'NONE', #120, #284, #151 ) ;
#243 = CIRCLE ( 'NONE', #321, 9.550000000000000700 ) ;
#244 = PRESENTATION_STYLE_ASSIGNMENT (( #256 ) ) ;
#245 = CARTESIAN_POINT ( 'NONE',  ( 5.100000000013784200, 0.0000000000000000000, 0.0000000000000000000 ) ) ;
#246 = ORIENTED_EDGE ( 'NONE', *, *, #331, .T. ) ;
#247 = DIRECTION ( 'NONE',  ( 0.0000000000000000000, 0.0000000000000000000, -1.000000000000000000 ) ) ;
#248 = DIRECTION ( 'NONE',  ( 1.000000000000000000, -0.0000000000000000000, 0.0000000000000000000 ) ) ;
#249 = CIRCLE ( 'NONE', #242, 8.634999999999999800 ) ;
#250 = EDGE_LOOP ( 'NONE', ( #202 ) ) ;
#251 =( NAMED_UNIT ( * ) PLANE_ANGLE_UNIT ( ) SI_UNIT ( $, .RADIAN. ) );
#252 = ADVANCED_FACE ( 'NONE', ( #101, #81 ), #208, .F. ) ;
#253 = AXIS2_PLACEMENT_3D ( 'NONE', #62, #13, #195 ) ;
#254 = FACE_OUTER_BOUND ( 'NONE', #83, .T. ) ;
#255 = EDGE_CURVE ( 'NONE', #76, #76, #349, .T. ) ;
#256 = SURFACE_STYLE_USAGE ( .BOTH. , #95 ) ;
#257 = APPLICATION_PROTOCOL_DEFINITION ( 'draft international standard', 'automotive_design', 1998, #152 ) ;
#258 = EDGE_LOOP ( 'NONE', ( #180 ) ) ;
#259 = AXIS2_PLACEMENT_3D ( 'NONE', #108, #135, #27 ) ;
#260 = ORIENTED_EDGE ( 'NONE', *, *, #97, .T. ) ;
#261 =( LENGTH_UNIT ( ) NAMED_UNIT ( * ) SI_UNIT ( .MILLI., .METRE. ) );
#262 = FACE_BOUND ( 'NONE', #306, .T. ) ;
#263 = FACE_BOUND ( 'NONE', #80, .T. ) ;
#264 = AXIS2_PLACEMENT_3D ( 'NONE', #192, #219, #121 ) ;
#265 = PLANE ( 'NONE',  #8 ) ;
#266 = FACE_BOUND ( 'NONE', #250, .T. ) ;
#267 = CIRCLE ( 'NONE', #264, 37.45000000000405300 ) ;
#268 = DIRECTION ( 'NONE',  ( 1.000000000000000000, -0.0000000000000000000, -0.0000000000000000000 ) ) ;
#269 = CIRCLE ( 'NONE', #84, 8.634999999999999800 ) ;
#270 = DIRECTION ( 'NONE',  ( 1.000000000000000000, -0.0000000000000000000, -0.0000000000000000000 ) ) ;
#271 = EDGE_CURVE ( 'NONE', #287, #287, #65, .T. ) ;
#272 = DIRECTION ( 'NONE',  ( -1.000000000000000000, -0.0000000000000000000, -0.0000000000000000000 ) ) ;
#273 = EDGE_LOOP ( 'NONE', ( #246 ) ) ;
#274 = AXIS2_PLACEMENT_3D ( 'NONE', #336, #140, #167 ) ;
#275 = DIRECTION ( 'NONE',  ( 0.0000000000000000000, 0.0000000000000000000, 1.000000000000000000 ) ) ;
#276 = CARTESIAN_POINT ( 'NONE',  ( 2.540000000000000000, 0.0000000000000000000, 0.0000000000000000000 ) ) ;
#277 = FACE_OUTER_BOUND ( 'NONE', #158, .T. ) ;
#278 = VERTEX_POINT ( 'NONE', #44 ) ;
#279 = DIRECTION ( 'NONE',  ( 1.000000000000000000, -0.0000000000000000000, -0.0000000000000000000 ) ) ;
#280 = ADVANCED_FACE ( 'NONE', ( #266, #25 ), #172, .T. ) ;
#281 = VERTEX_POINT ( 'NONE', #20 ) ;
#282 = CARTESIAN_POINT ( 'NONE',  ( 31.80000000000000100, 0.0000000000000000000, 7.849999999999999600 ) ) ;
#283 = EDGE_LOOP ( 'NONE', ( #137 ) ) ;
#284 = DIRECTION ( 'NONE',  ( -1.000000000000000000, 0.0000000000000000000, 0.0000000000000000000 ) ) ;
#285 = PRESENTATION_LAYER_ASSIGNMENT (  '', '', ( #18 ) ) ;
#286 = ADVANCED_FACE ( 'NONE', ( #277, #189 ), #66, .F. ) ;
#287 = VERTEX_POINT ( 'NONE', #45 ) ;
#288 = EDGE_LOOP ( 'NONE', ( #19 ) ) ;
#289 = VERTEX_POINT ( 'NONE', #308 ) ;
#290 = AXIS2_PLACEMENT_3D ( 'NONE', #100, #122, #313 ) ;
#291 = ORIENTED_EDGE ( 'NONE', *, *, #32, .T. ) ;
#292 = EDGE_CURVE ( 'NONE', #278, #278, #126, .T. ) ;
#293 = DIRECTION ( 'NONE',  ( 1.000000000000000000, -0.0000000000000000000, 0.0000000000000000000 ) ) ;
#294 = EDGE_LOOP ( 'NONE', ( #260 ) ) ;
#295 = STYLED_ITEM ( 'NONE', ( #39 ), #50 ) ;
#296 = CARTESIAN_POINT ( 'NONE',  ( 39.89999999999999900, 0.0000000000000000000, 0.0000000000000000000 ) ) ;
#297 = CARTESIAN_POINT ( 'NONE',  ( 0.0000000000000000000, 0.0000000000000000000, 0.0000000000000000000 ) ) ;
#298 = EDGE_LOOP ( 'NONE', ( #102 ) ) ;
#299 = DIRECTION ( 'NONE',  ( 0.0000000000000000000, 0.0000000000000000000, -1.000000000000000000 ) ) ;
#300 = AXIS2_PLACEMENT_3D ( 'NONE', #344, #314, #72 ) ;
#301 = DIRECTION ( 'NONE',  ( 1.000000000000000000, -0.0000000000000000000, 0.0000000000000000000 ) ) ;
#302 = EDGE_LOOP ( 'NONE', ( #346 ) ) ;
#303 = CIRCLE ( 'NONE', #318, 23.75000000002364700 ) ;
#304 = ADVANCED_FACE ( 'NONE', ( #54, #3 ), #33, .T. ) ;
#305 = MECHANICAL_DESIGN_GEOMETRIC_PRESENTATION_REPRESENTATION (  '', ( #295 ), #214 ) ;
#306 = EDGE_LOOP ( 'NONE', ( #47 ) ) ;
#307 = AXIS2_PLACEMENT_3D ( 'NONE', #245, #115, #9 ) ;
#308 = CARTESIAN_POINT ( 'NONE',  ( 37.35999999999999900, 0.0000000000000000000, 8.634999999999999800 ) ) ;
#309 = EDGE_CURVE ( 'NONE', #350, #350, #326, .T. ) ;
#310 = FACE_OUTER_BOUND ( 'NONE', #110, .T. ) ;
#311 = AXIS2_PLACEMENT_3D ( 'NONE', #296, #136, #211 ) ;
#312 = FACE_OUTER_BOUND ( 'NONE', #123, .T. ) ;
#313 = DIRECTION ( 'NONE',  ( 0.0000000000000000000, 0.0000000000000000000, -1.000000000000000000 ) ) ;
#314 = DIRECTION ( 'NONE',  ( 0.0000000000000000000, 0.0000000000000000000, 1.000000000000000000 ) ) ;
#315 = ORIENTED_EDGE ( 'NONE', *, *, #217, .T. ) ;
#316 = FILL_AREA_STYLE_COLOUR ( '', #348 ) ;
#317 = EDGE_LOOP ( 'NONE', ( #43 ) ) ;
#318 = AXIS2_PLACEMENT_3D ( 'NONE', #322, #30, #82 ) ;
#319 = ORIENTED_EDGE ( 'NONE', *, *, #340, .F. ) ;
#320 = PRODUCT_DEFINITION ( 'UNKNOWN', '', #93, #139 ) ;
#321 = AXIS2_PLACEMENT_3D ( 'NONE', #237, #5, #107 ) ;
#322 = CARTESIAN_POINT ( 'NONE',  ( 2.540000000012849800, 0.0000000000000000000, 0.0000000000000000000 ) ) ;
#323 = SURFACE_STYLE_FILL_AREA ( #201 ) ;
#324 = FACE_OUTER_BOUND ( 'NONE', #187, .T. ) ;
#325 = DIRECTION ( 'NONE',  ( 0.0000000000000000000, 0.0000000000000000000, -1.000000000000000000 ) ) ;
#326 = CIRCLE ( 'NONE', #40, 15.00000000000000000 ) ;
#327 = CARTESIAN_POINT ( 'NONE',  ( 39.89999999999999900, 0.0000000000000000000, 0.0000000000000000000 ) ) ;
#328 = EDGE_LOOP ( 'NONE', ( #229 ) ) ;
#329 = DIRECTION ( 'NONE',  ( 0.0000000000000000000, 0.0000000000000000000, 1.000000000000000000 ) ) ;
#330 = CYLINDRICAL_SURFACE ( 'NONE', #333, 37.45000000000000300 ) ;
#331 = EDGE_CURVE ( 'NONE', #197, #197, #267, .T. ) ;
#332 = CARTESIAN_POINT ( 'NONE',  ( 3.200000000015085900, 0.0000000000000000000, 0.0000000000000000000 ) ) ;
#333 = AXIS2_PLACEMENT_3D ( 'NONE', #297, #160, #325 ) ;
#334 = EDGE_LOOP ( 'NONE', ( #193 ) ) ;
#335 = CARTESIAN_POINT ( 'NONE',  ( 37.35999999999999900, 2.142874010085230000E-016, 5.166983446056901400E-016 ) ) ;
#336 = CARTESIAN_POINT ( 'NONE',  ( 0.0000000000000000000, 0.0000000000000000000, 0.0000000000000000000 ) ) ;
#337 = FACE_OUTER_BOUND ( 'NONE', #161, .T. ) ;
#338 = FACE_OUTER_BOUND ( 'NONE', #273, .T. ) ;
#339 = UNCERTAINTY_MEASURE_WITH_UNIT (LENGTH_MEASURE( 1.000000000000000100E-005 ), #148, 'distance_accuracy_value', 'NONE');
#340 = EDGE_CURVE ( 'NONE', #67, #67, #249, .T. ) ;
#341 = CARTESIAN_POINT ( 'NONE',  ( 2.540000000000000000, 0.0000000000000000000, -26.16000000000000000 ) ) ;
#342 = AXIS2_PLACEMENT_3D ( 'NONE', #276, #272, #63 ) ;
#343 = CYLINDRICAL_SURFACE ( 'NONE', #311, 15.00000000000000000 ) ;
#344 = CARTESIAN_POINT ( 'NONE',  ( 0.0000000000000000000, 0.0000000000000000000, 0.0000000000000000000 ) ) ;
#345 = AXIS2_PLACEMENT_3D ( 'NONE', #165, #90, #275 ) ;
#346 = ORIENTED_EDGE ( 'NONE', *, *, #32, .F. ) ;
#347 = ADVANCED_FACE ( 'NONE', ( #203, #338 ), #207, .T. ) ;
#348 = COLOUR_RGB ( '',0.7450980392156862900, 0.7450980392156862900, 0.7450980392156862900 ) ;
#349 = CIRCLE ( 'NONE', #342, 26.16000000000000000 ) ;
#350 = VERTEX_POINT ( 'NONE', #69 ) ;
#351 = DIRECTION ( 'NONE',  ( 1.000000000000000000, 0.0000000000000000000, 0.0000000000000000000 ) ) ;
#352 = AXIS2_PLACEMENT_3D ( 'NONE', #332, #163, #15 ) ;
#353 = UNCERTAINTY_MEASURE_WITH_UNIT (LENGTH_MEASURE( 1.000000000000000100E-005 ), #228, 'distance_accuracy_value', 'NONE');
#354 = EDGE_LOOP ( 'NONE', ( #319 ) ) ;
ENDSEC;
END-ISO-10303-21;
